+ Yorum Gönder
Müzik ve Tv ve Müzik Türleri Forumunda Tab okuma Yöntemi (gitar) Konusunu Okuyorsunuz..
  1. MAJİX
    Devamlı Üye

    Tab okuma Yöntemi (gitar)








    TAB okumak son derece kolay bir öğrenme ve çalışma tekniğidir. TAB notadan farklı bir teknik olup kesinlikle nota bilmenizi gerektirmez. Bu sebepten dolayı nota okuyamamak gibi bir probleminiz varsa size TAB okumayı öğrenmenizi tavsiye ederim.
    TAB altı adet çizgiden oluşur. Bu çizgilerin herbiri bir tele karşılık gelir. Sizi en çok şaşırtacak durum en alttaki çizginin gitarımızda en üst tele denk gelmesi olacaktır. TAB üzerindeki sıralama aşağıdan yukarı doğru; kalın mi la re sol si ve mi şeklindedir. Tab üzerindeki rakamlar basmanız gereken perde numarasıdır. Alt kısımdaki rakamlar ise kullanmanız gereken parmağınızın numarasıdır. Bu durumda işaret parmağınız 1 orta parmağınız 2 yüzük parmağınız 3 ve serçe parmağınız 4 numaradır. Şimdi alttaki TABa bakalım.
    Buradaki ilk rakam bize en üst telde birinci perdeye işaret parmağımızla basmamızı söylüyor. İkinci rakam ise bize en üst telde ikinci perdeye otra parmağımızla basmamızı söylüyor. Böylece bütün tellerin 1. 2. 3. ve 4. perdelerine basarak yukarıdan aşağı doğru bir hareket yapmış oluyoruz.
    Son olarak, TABın başındaki rakamlar bize çalışacağımız parça ya da egzersizin ritmi hakkında bilgi verir. Yukarıdaki tablar farklı ritimlerdedir ve bizim vuruşlarımız bu ritimlere uygun olmalıdır. Eğer ritim bilginiz yoksa Ritim bölümüne bakınız.





    --------3---------- --------0----------
    --------3---------- --------0----------
    --------4---------- --------1----------
    --------5---------- --------2----------
    --------5---------- --------2----------
    --------3---------- --------0----------

    Çok basitçe anlatıyorum. Mesela bu bir akor. Sana hangi telde hangi zamanda hangi perdeye basman gerektiğini gösteriyor. Dikkat edeceğin şey tam ters olaraktır. Yani en alt çizgi senin en üst telindir. Ona göre ayarlayacaksın. Burda tüm sesler aynı hizada demekki tek seferde çıkacak ses. Parmaklarının konumlandırmasını sen nasıl rahat ediyosan ona göre ayarla. Sıfır ( 0 ) olarak geçen yerler boş tellerdir. Yani hiç bir perde olmadan telin serbest hali

    ---8----5-------------------------------------------------------------------------------------
    --------------8-----5-------------------------------------------------------------------------
    ---------------------------7------5-----7-----5----------------------------------------------
    -------------------------------------------------------7------5-------------------------------
    --------------------------------------------------------------------7------5------------------
    -----------------------------------------------------------------------------------3------5---

    Burda da bi sıra var. Sırası ile en alt telden başlayıp yukarı doğru giden bi riff, kalıp neyse işte. Bir ses bitiminden sonra diğer ses başlıyor. Bunların tabiki bi ritmleri vardır ama bu egzersiz olduğu için ritm kavramı sana ait. Yavaş yada hızlı farketmez.

    e(ince mi) -----------
    B(si) -----------
    G(sol) -----------
    D(re) -----------
    A(la) -----------
    E(mi) -----------

    Tablar klavye üzerindeki pozisyona göre değil düşey olarak tersten yazılırlar.

    e --0--------
    B --1--------
    G --2--------
    D --2-------- Örneğin bu görmüş olduğunuz Am akorudur
    A --0--------
    E -----------

    E - kalın mi
    A - la
    D - re
    G - sol
    B - si
    E - ince mi


    Birde 4lük, 8lik, 16lık, 32lik şeklinde terimler göreceksin ileride bunlarda şöyle oluyor,

    4lük demek bir metronomda 1 vuruş
    8lik 2 vuruş
    16lık 4 vuruş
    32lik 8 vuruş

    Bu arada unutmayalım ki '0' rakamı o telin hiçbir perdeye basmadan boş olarak çalınacağını gösteriyor. Görüldüğü gibi tab okumak nota okumaktan daha kolay. Onun için çoğu yerde tercih ediliyor.

    Tab işaretleri
    > vurgulama yapýlacak
    / teli yukarý çekiyoruz
    teli aþagýya çekiyoruz
    h Hammer-on/ pull off
    : tekrar
    † Harmonic
    ~ teli tiretin
    not tum gitarlar için geçerlidir işinize yarar







  2. Ziyaretçi





    saol kardeş çok yardımcı oldun




  3. SuskuN PrenS
    Devamlı Üye
    Tab okuma Yöntemi ilgili bilgi



    <pre id=code>E----------------------------------------------------------------
    B----------------------------------------------------------------
    G----------------------------------------------------------------
    D----------------------------------------------------------------
    A----------------------------------------------------------------
    E----------------------------------------------------------------

    bu internet tablarının genel boş yazılımıdır dikkat ederseniz ters gibi görünecektir
    ama böyle olmasının sebebi tutuşa göre hazırlanmış olmasıdır


    E----------------------------------------------------------------
    B----------------------------------------------------------------
    G----------------------------------------------------------------
    D------------------------------------0--1--2--3--4---------------
    A----------------------0--1--2--3--4-----------------------------
    E---0--1--2--3--4------------------------------------------------

    gibi bir örnek verelim buradaki sayılar o telin hangi perdesine bastığımızı
    göstermek içindir yani 0 olunca boş, 1 olunca birinci perde, 2 olunca ikinci perde gibi


    aynı zamanda şöyle bir örnekle karşılaşırsak :


    E----------------------------------------------------------------
    B----------------------------------------------------------------
    G----------------------------------------------------------------
    D----------------------------------------------------------------
    A---3--5---------------------------------------------------------
    E---1--3---------------------------------------------------------

    üstüste olan sayılar olduğunu görünce ne yapmamız gerekiyor??
    bunu şöyle anlatayım üstüste olan sayılar aynı anda basılması gerektiğini gösterir
    yani e telinin 1. perdesi ile A telinin 3. perdesine birlikte basacaksınız

    E-----0-----------------------------------------------------------
    B---0--0---------------------------------------------------------
    G--0----0--------------------------------------------------------
    D----------------------------------------------------------------
    A----------------------------------------------------------------
    E-0-------0-------------------------------------------------------

    böyle bir durumda ise soldan sağa doğru okuyarak her teli ayrı ayrı çalmak gerekli.

    şimdi gelelim tablarda gördüğünüz çeşitli harf ve sembollere ve ne anlama geldiklerine :

    e:---------------------------------------------------------------------------|
    B:----8--8--7---7---------------------------------8--8--7---7----------------|
    G:-7---------------7~~~---------7/9--9\7~~~----7---------------7~~~------9~~~|
    D:-----------------------7/9\7--------------------------------------7/9------|
    A:---------------------------------------------------------------------------|
    E:---------------------------------------------------------------------------|

    burada görülen semboller ne anlamda??

    7~~~ : yedinci perdede vibrato
    7/9\7: 7 den 9 a 9 dan 7 ye slide
    gibi

    çoğu tabın başında tabda kullanılan harf ve sembollerin anlamı zaten belirtilmiştir
    bu yüzden tabı tam anlamıyla çalabilmek için bu tekniklerin iyi bir şekilde bilinmesi
    gerekir

    örneğin :

    h = hammer on a.h = Artificial Harmonic
    p = pull off s.h = Semi Harmonic
    / = slide up w/bar = use tremolo bar
    \ = slide down

    ^=legato
    9(11)=bend note to pitch in parentheses
    ~=vibrato
    ph=pinch harmonic
    t=tap





+ Yorum Gönder


tab okuma,  gitar tab okuma,  gitarda tab okuma,  gitar tab okuma yöntemi,  tab okuma gitar,  bas gitar tab okuma